Which one?

Guitar Tricks Forum > Music Theory > Which one?

Member

Joined: 10/25/00

Posts: 65

which of these http://www.wholenote.com/default.asp?iTarget=http%3A//www.wholenote.com/basics/scales.asp%3Fr%3D17%26q%3D19%26v%3D8%26n%3D0%26d%3D0 patterns would you reckomend learning? I already know one but i didnt see it there, it goes like this.


E---------------------------4-5-7-8----
B-----------------------5-6------------
G-----------------4-5-7----------------
D-------------6-7----------------------
A-------5-7-8--------------------------
E-5-7-8--------------------------------
Sounding better is in your head ,not your amp.

#1

which of these http://www.wholenote.com/default.asp?iTarget=http%3A//www.wholenote.com/basics/scales.asp%3Fr%3D17%26q%3D19%26v%3D8%26n%3D0%26d%3D0 patterns would you reckomend learning? I already know one but i didnt see it there, it goes like this.


E---------------------------4-5-7-8----
B-----------------------5-6------------
G-----------------4-5-7----------------
D-------------6-7----------------------
A-------5-7-8--------------------------
E-5-7-8--------------------------------
Sounding better is in your head ,not your amp.