What scale is this?

Guitar Tricks Forum > Music Theory > What scale is this?

Senior Member

Joined: 07/19/00

Posts: 166

What Scale Would This Be?


G-------------------------------9--10--12----
D---------------------9--10-12---------------
A-----------8--10--12------------------------
E-8--10--12----------------------------------
E-----------10-11-13---------------------
B--10-11-13------------------------------

F Dorian?

#1

What Scale Would This Be?


G-------------------------------9--10--12----
D---------------------9--10-12---------------
A-----------8--10--12------------------------
E-8--10--12----------------------------------
E-----------10-11-13---------------------
B--10-11-13------------------------------

F Dorian?

Senior Member

Joined: 07/19/00

Posts: 166

Sorry Its So Messy It Should Be
8,10,12 On The Low E String 8,10,12 On The A String 9,10,12 On The D String 9,10,12 on the G String 10,11,13 on the B String And 10,11,13 on the High E string.

#2

Sorry Its So Messy It Should Be
8,10,12 On The Low E String 8,10,12 On The A String 9,10,12 On The D String 9,10,12 on the G String 10,11,13 on the B String And 10,11,13 on the High E string.

Administrator

Joined: 10/31/00

Posts: 3320

are you tuned different or something? the first one the strings have the wrong names. the second one runs through an octave of major scale and then does something different on the next octave.

not sure what you had in mind....

#3

are you tuned different or something? the first one the strings have the wrong names. the second one runs through an octave of major scale and then does something different on the next octave.

not sure what you had in mind....

Senior Member

Joined: 07/19/00

Posts: 166

I Ran Out Of Room So I Put The B And E Strings on The Bottom. Its Regular Tuning. If You Dont Under Stand Read What I Said After My Orginal Post.

#4

I Ran Out Of Room So I Put The B And E Strings on The Bottom. Its Regular Tuning. If You Dont Under Stand Read What I Said After My Orginal Post.

Senior Member

Joined: 07/19/00

Posts: 166

HERE

E-----------------------------------------10-12-13-
B---------------------------------10-12-13---------
G-------------------------9-10-12-----------------
D-----------------9-10-12-------------------------
A---------8-10-12---------------------------------
E-8-10-12----------------------------------------

#5

HERE

E-----------------------------------------10-12-13-
B---------------------------------10-12-13---------
G-------------------------9-10-12-----------------
D-----------------9-10-12-------------------------
A---------8-10-12---------------------------------
E-8-10-12----------------------------------------

Member

Joined: 08/02/00

Posts: 40

Yeah, it should end on 15 on the e.

#6

Yeah, it should end on 15 on the e.