Triads (inversions)

Guitar Tricks Forum > Music Theory > Triads (inversions)

New Member

Joined: 07/07/00

Posts: 2

can anyone help me out with diminished triads?

#1

can anyone help me out with diminished triads?

Guitar Tricks Instructor

Joined: 04/29/00

Posts: 267

What's to know? They're just like major/minor triads. Here's Bdim:
code:
|-----| |-----| |-----|
|-----| |-----| |--3--|
|-----| |--4--| |--4--|
|--3--| |--3--| |--3--|
|--5--| |--5--| |-----|
|--7--| |-----| |-----|

root 1st 2nd

[/code]

[This message has been edited by ekstasis16 (edited 08-13-2000).]

#2

What's to know? They're just like major/minor triads. Here's Bdim:
code:
|-----| |-----| |-----|
|-----| |-----| |--3--|
|-----| |--4--| |--4--|
|--3--| |--3--| |--3--|
|--5--| |--5--| |-----|
|--7--| |-----| |-----|

root 1st 2nd

[/code]

[This message has been edited by ekstasis16 (edited 08-13-2000).]